ISO-10303-21;
HEADER;
/* Generated by software containing ST-Developer
 * from STEP Tools, Inc. (www.steptools.com) 
 */

FILE_DESCRIPTION(
/* description */ (''),
/* implementation_level */ '2;1');

FILE_NAME(
/* name */ 
'E:/PROJECTS/3D/CAD/K3D-VOSTOK-main/Assemblies/MyXY2_0.7/CPAP inlet gr
ill v0.step',
/* time_stamp */ '2022-08-14T16:06:03+05:00',
/* author */ (''),
/* organization */ (''),
/* preprocessor_version */ 'ST-DEVELOPER v19',
/* originating_system */ 'Autodesk Translation Framework v11.7.0.108',
/* authorisation */ '');

FILE_SCHEMA (('AUTOMOTIVE_DESIGN { 1 0 10303 214 3 1 1 }'));
ENDSEC;

DATA;
#10=MECHANICAL_DESIGN_GEOMETRIC_PRESENTATION_REPRESENTATION('',(#24,#25),
#461);
#11=ITEM_DEFINED_TRANSFORMATION($,$,#261,#298);
#12=ITEM_DEFINED_TRANSFORMATION($,$,#271,#299);
#13=(
REPRESENTATION_RELATIONSHIP($,$,#475,#474)
REPRESENTATION_RELATIONSHIP_WITH_TRANSFORMATION(#11)
SHAPE_REPRESENTATION_RELATIONSHIP()
);
#14=(
REPRESENTATION_RELATIONSHIP($,$,#476,#474)
REPRESENTATION_RELATIONSHIP_WITH_TRANSFORMATION(#12)
SHAPE_REPRESENTATION_RELATIONSHIP()
);
#15=CONTEXT_DEPENDENT_SHAPE_REPRESENTATION(#13,#472);
#16=CONTEXT_DEPENDENT_SHAPE_REPRESENTATION(#14,#473);
#17=NEXT_ASSEMBLY_USAGE_OCCURRENCE('Grill:1','Grill:1','Grill:1',#478,#479,
'Grill:1');
#18=NEXT_ASSEMBLY_USAGE_OCCURRENCE('Inlet:1','Inlet:1','Inlet:1',#478,#480,
'Inlet:1');
#19=TOROIDAL_SURFACE('',#291,14.9787800455127,3.);
#20=SHAPE_REPRESENTATION_RELATIONSHIP('SRR','None',#475,#22);
#21=SHAPE_REPRESENTATION_RELATIONSHIP('SRR','None',#476,#23);
#22=ADVANCED_BREP_SHAPE_REPRESENTATION('',(#26),#459);
#23=ADVANCED_BREP_SHAPE_REPRESENTATION('',(#27),#460);
#24=STYLED_ITEM('',(#494),#26);
#25=STYLED_ITEM('',(#494),#27);
#26=MANIFOLD_SOLID_BREP('Body1',#235);
#27=MANIFOLD_SOLID_BREP('Body1',#236);
#28=CONICAL_SURFACE('',#268,10.8841463414634,0.239231599963661);
#29=CONICAL_SURFACE('',#285,11.7089387828744,0.239231599963661);
#30=CONICAL_SURFACE('',#294,15.7,0.785398163397448);
#31=CONICAL_SURFACE('',#297,12.95,0.244978663126864);
#32=FACE_BOUND('',#76,.T.);
#33=FACE_BOUND('',#82,.T.);
#34=FACE_BOUND('',#84,.T.);
#35=FACE_BOUND('',#86,.T.);
#36=FACE_BOUND('',#92,.T.);
#37=LINE('',#395,#45);
#38=LINE('',#402,#46);
#39=LINE('',#412,#47);
#40=LINE('',#418,#48);
#41=LINE('',#431,#49);
#42=LINE('',#440,#50);
#43=LINE('',#447,#51);
#44=LINE('',#451,#52);
#45=VECTOR('',#310,12.6);
#46=VECTOR('',#319,10.8841463414634);
#47=VECTOR('',#332,12.7);
#48=VECTOR('',#339,13.9);
#49=VECTOR('',#356,11.7089387828744);
#50=VECTOR('',#367,16.);
#51=VECTOR('',#376,15.7);
#52=VECTOR('',#383,12.95);
#53=CYLINDRICAL_SURFACE('',#264,12.6);
#54=CYLINDRICAL_SURFACE('',#272,12.7);
#55=CYLINDRICAL_SURFACE('',#276,13.9);
#56=CYLINDRICAL_SURFACE('',#288,16.);
#57=FACE_OUTER_BOUND('',#73,.T.);
#58=FACE_OUTER_BOUND('',#74,.T.);
#59=FACE_OUTER_BOUND('',#75,.T.);
#60=FACE_OUTER_BOUND('',#77,.T.);
#61=FACE_OUTER_BOUND('',#78,.T.);
#62=FACE_OUTER_BOUND('',#79,.T.);
#63=FACE_OUTER_BOUND('',#80,.T.);
#64=FACE_OUTER_BOUND('',#81,.T.);
#65=FACE_OUTER_BOUND('',#83,.T.);
#66=FACE_OUTER_BOUND('',#85,.T.);
#67=FACE_OUTER_BOUND('',#87,.T.);
#68=FACE_OUTER_BOUND('',#88,.T.);
#69=FACE_OUTER_BOUND('',#89,.T.);
#70=FACE_OUTER_BOUND('',#90,.T.);
#71=FACE_OUTER_BOUND('',#91,.T.);
#72=FACE_OUTER_BOUND('',#93,.T.);
#73=EDGE_LOOP('',(#158));
#74=EDGE_LOOP('',(#159,#160,#161,#162));
#75=EDGE_LOOP('',(#163));
#76=EDGE_LOOP('',(#164));
#77=EDGE_LOOP('',(#165,#166,#167,#168));
#78=EDGE_LOOP('',(#169));
#79=EDGE_LOOP('',(#170,#171,#172,#173,#174));
#80=EDGE_LOOP('',(#175,#176,#177,#178));
#81=EDGE_LOOP('',(#179));
#82=EDGE_LOOP('',(#180));
#83=EDGE_LOOP('',(#181));
#84=EDGE_LOOP('',(#182));
#85=EDGE_LOOP('',(#183));
#86=EDGE_LOOP('',(#184));
#87=EDGE_LOOP('',(#185,#186,#187,#188,#189));
#88=EDGE_LOOP('',(#190,#191,#192,#193,#194));
#89=EDGE_LOOP('',(#195,#196,#197,#198,#199));
#90=EDGE_LOOP('',(#200,#201,#202,#203,#204));
#91=EDGE_LOOP('',(#205));
#92=EDGE_LOOP('',(#206));
#93=EDGE_LOOP('',(#207,#208,#209,#210,#211));
#94=CIRCLE('',#263,12.6);
#95=CIRCLE('',#265,12.6);
#96=CIRCLE('',#267,10.5);
#97=CIRCLE('',#269,11.2682926829268);
#98=CIRCLE('',#273,12.7);
#99=CIRCLE('',#274,12.7);
#100=CIRCLE('',#275,12.7);
#101=CIRCLE('',#277,13.9);
#102=CIRCLE('',#278,13.9);
#103=CIRCLE('',#280,11.3536585365854);
#104=CIRCLE('',#282,13.2);
#105=CIRCLE('',#284,16.);
#106=CIRCLE('',#286,12.0642190291634);
#107=CIRCLE('',#287,12.0642190291634);
#108=CIRCLE('',#289,16.);
#109=CIRCLE('',#290,16.);
#110=CIRCLE('',#292,13.3168108843616);
#111=CIRCLE('',#293,3.);
#112=CIRCLE('',#295,15.4);
#113=VERTEX_POINT('',#391);
#114=VERTEX_POINT('',#394);
#115=VERTEX_POINT('',#398);
#116=VERTEX_POINT('',#401);
#117=VERTEX_POINT('',#407);
#118=VERTEX_POINT('',#408);
#119=VERTEX_POINT('',#411);
#120=VERTEX_POINT('',#415);
#121=VERTEX_POINT('',#417);
#122=VERTEX_POINT('',#421);
#123=VERTEX_POINT('',#424);
#124=VERTEX_POINT('',#427);
#125=VERTEX_POINT('',#430);
#126=VERTEX_POINT('',#432);
#127=VERTEX_POINT('',#436);
#128=VERTEX_POINT('',#437);
#129=VERTEX_POINT('',#442);
#130=VERTEX_POINT('',#446);
#131=EDGE_CURVE('',#113,#113,#94,.T.);
#132=EDGE_CURVE('',#113,#114,#37,.T.);
#133=EDGE_CURVE('',#114,#114,#95,.F.);
#134=EDGE_CURVE('',#115,#115,#96,.T.);
#135=EDGE_CURVE('',#115,#116,#38,.T.);
#136=EDGE_CURVE('',#116,#116,#97,.T.);
#137=EDGE_CURVE('',#117,#118,#98,.T.);
#138=EDGE_CURVE('',#118,#117,#99,.T.);
#139=EDGE_CURVE('',#118,#119,#39,.T.);
#140=EDGE_CURVE('',#119,#119,#100,.T.);
#141=EDGE_CURVE('',#120,#120,#101,.T.);
#142=EDGE_CURVE('',#120,#121,#40,.T.);
#143=EDGE_CURVE('',#121,#121,#102,.T.);
#144=EDGE_CURVE('',#122,#122,#103,.T.);
#145=EDGE_CURVE('',#123,#123,#104,.T.);
#146=EDGE_CURVE('',#124,#124,#105,.T.);
#147=EDGE_CURVE('',#122,#125,#41,.T.);
#148=EDGE_CURVE('',#125,#126,#106,.F.);
#149=EDGE_CURVE('',#126,#125,#107,.F.);
#150=EDGE_CURVE('',#127,#128,#108,.T.);
#151=EDGE_CURVE('',#128,#127,#109,.T.);
#152=EDGE_CURVE('',#128,#124,#42,.T.);
#153=EDGE_CURVE('',#129,#129,#110,.F.);
#154=EDGE_CURVE('',#129,#126,#111,.T.);
#155=EDGE_CURVE('',#127,#130,#43,.T.);
#156=EDGE_CURVE('',#130,#130,#112,.T.);
#157=EDGE_CURVE('',#117,#123,#44,.T.);
#158=ORIENTED_EDGE('',*,*,#131,.T.);
#159=ORIENTED_EDGE('',*,*,#131,.F.);
#160=ORIENTED_EDGE('',*,*,#132,.T.);
#161=ORIENTED_EDGE('',*,*,#133,.F.);
#162=ORIENTED_EDGE('',*,*,#132,.F.);
#163=ORIENTED_EDGE('',*,*,#133,.T.);
#164=ORIENTED_EDGE('',*,*,#134,.F.);
#165=ORIENTED_EDGE('',*,*,#134,.T.);
#166=ORIENTED_EDGE('',*,*,#135,.T.);
#167=ORIENTED_EDGE('',*,*,#136,.F.);
#168=ORIENTED_EDGE('',*,*,#135,.F.);
#169=ORIENTED_EDGE('',*,*,#136,.T.);
#170=ORIENTED_EDGE('',*,*,#137,.F.);
#171=ORIENTED_EDGE('',*,*,#138,.F.);
#172=ORIENTED_EDGE('',*,*,#139,.T.);
#173=ORIENTED_EDGE('',*,*,#140,.T.);
#174=ORIENTED_EDGE('',*,*,#139,.F.);
#175=ORIENTED_EDGE('',*,*,#141,.F.);
#176=ORIENTED_EDGE('',*,*,#142,.T.);
#177=ORIENTED_EDGE('',*,*,#143,.T.);
#178=ORIENTED_EDGE('',*,*,#142,.F.);
#179=ORIENTED_EDGE('',*,*,#140,.F.);
#180=ORIENTED_EDGE('',*,*,#144,.F.);
#181=ORIENTED_EDGE('',*,*,#143,.F.);
#182=ORIENTED_EDGE('',*,*,#145,.T.);
#183=ORIENTED_EDGE('',*,*,#146,.F.);
#184=ORIENTED_EDGE('',*,*,#141,.T.);
#185=ORIENTED_EDGE('',*,*,#144,.T.);
#186=ORIENTED_EDGE('',*,*,#147,.T.);
#187=ORIENTED_EDGE('',*,*,#148,.T.);
#188=ORIENTED_EDGE('',*,*,#149,.T.);
#189=ORIENTED_EDGE('',*,*,#147,.F.);
#190=ORIENTED_EDGE('',*,*,#150,.F.);
#191=ORIENTED_EDGE('',*,*,#151,.F.);
#192=ORIENTED_EDGE('',*,*,#152,.T.);
#193=ORIENTED_EDGE('',*,*,#146,.T.);
#194=ORIENTED_EDGE('',*,*,#152,.F.);
#195=ORIENTED_EDGE('',*,*,#153,.T.);
#196=ORIENTED_EDGE('',*,*,#154,.T.);
#197=ORIENTED_EDGE('',*,*,#148,.F.);
#198=ORIENTED_EDGE('',*,*,#149,.F.);
#199=ORIENTED_EDGE('',*,*,#154,.F.);
#200=ORIENTED_EDGE('',*,*,#150,.T.);
#201=ORIENTED_EDGE('',*,*,#151,.T.);
#202=ORIENTED_EDGE('',*,*,#155,.T.);
#203=ORIENTED_EDGE('',*,*,#156,.F.);
#204=ORIENTED_EDGE('',*,*,#155,.F.);
#205=ORIENTED_EDGE('',*,*,#156,.T.);
#206=ORIENTED_EDGE('',*,*,#153,.F.);
#207=ORIENTED_EDGE('',*,*,#137,.T.);
#208=ORIENTED_EDGE('',*,*,#138,.T.);
#209=ORIENTED_EDGE('',*,*,#157,.T.);
#210=ORIENTED_EDGE('',*,*,#145,.F.);
#211=ORIENTED_EDGE('',*,*,#157,.F.);
#212=PLANE('',#262);
#213=PLANE('',#266);
#214=PLANE('',#270);
#215=PLANE('',#279);
#216=PLANE('',#281);
#217=PLANE('',#283);
#218=PLANE('',#296);
#219=ADVANCED_FACE('',(#57),#212,.F.);
#220=ADVANCED_FACE('',(#58),#53,.T.);
#221=ADVANCED_FACE('',(#59,#32),#213,.F.);
#222=ADVANCED_FACE('',(#60),#28,.F.);
#223=ADVANCED_FACE('',(#61),#214,.F.);
#224=ADVANCED_FACE('',(#62),#54,.F.);
#225=ADVANCED_FACE('',(#63),#55,.T.);
#226=ADVANCED_FACE('',(#64,#33),#215,.F.);
#227=ADVANCED_FACE('',(#65,#34),#216,.F.);
#228=ADVANCED_FACE('',(#66,#35),#217,.F.);
#229=ADVANCED_FACE('',(#67),#29,.F.);
#230=ADVANCED_FACE('',(#68),#56,.T.);
#231=ADVANCED_FACE('',(#69),#19,.T.);
#232=ADVANCED_FACE('',(#70),#30,.T.);
#233=ADVANCED_FACE('',(#71,#36),#218,.T.);
#234=ADVANCED_FACE('',(#72),#31,.F.);
#235=CLOSED_SHELL('',(#219,#220,#221,#222,#223));
#236=CLOSED_SHELL('',(#224,#225,#226,#227,#228,#229,#230,#231,#232,#233,
#234));
#237=DERIVED_UNIT_ELEMENT(#241,1.);
#238=DERIVED_UNIT_ELEMENT(#463,-3.);
#239=DERIVED_UNIT_ELEMENT(#241,1.);
#240=DERIVED_UNIT_ELEMENT(#463,-3.);
#241=(
MASS_UNIT()
NAMED_UNIT(*)
SI_UNIT(.KILO.,.GRAM.)
);
#242=DERIVED_UNIT((#237,#238));
#243=DERIVED_UNIT((#239,#240));
#244=MEASURE_REPRESENTATION_ITEM('density measure',
POSITIVE_RATIO_MEASURE(7850.),#242);
#245=MEASURE_REPRESENTATION_ITEM('density measure',
POSITIVE_RATIO_MEASURE(7850.),#243);
#246=PROPERTY_DEFINITION_REPRESENTATION(#256,#250);
#247=PROPERTY_DEFINITION_REPRESENTATION(#257,#251);
#248=PROPERTY_DEFINITION_REPRESENTATION(#258,#252);
#249=PROPERTY_DEFINITION_REPRESENTATION(#259,#253);
#250=REPRESENTATION('material name',(#254),#459);
#251=REPRESENTATION('density',(#244),#459);
#252=REPRESENTATION('material name',(#255),#460);
#253=REPRESENTATION('density',(#245),#460);
#254=DESCRIPTIVE_REPRESENTATION_ITEM('Steel','Steel');
#255=DESCRIPTIVE_REPRESENTATION_ITEM('Steel','Steel');
#256=PROPERTY_DEFINITION('material property','material name',#479);
#257=PROPERTY_DEFINITION('material property','density of part',#479);
#258=PROPERTY_DEFINITION('material property','material name',#480);
#259=PROPERTY_DEFINITION('material property','density of part',#480);
#260=AXIS2_PLACEMENT_3D('placement',#388,#300,#301);
#261=AXIS2_PLACEMENT_3D('placement',#389,#302,#303);
#262=AXIS2_PLACEMENT_3D('',#390,#304,#305);
#263=AXIS2_PLACEMENT_3D('',#392,#306,#307);
#264=AXIS2_PLACEMENT_3D('',#393,#308,#309);
#265=AXIS2_PLACEMENT_3D('',#396,#311,#312);
#266=AXIS2_PLACEMENT_3D('',#397,#313,#314);
#267=AXIS2_PLACEMENT_3D('',#399,#315,#316);
#268=AXIS2_PLACEMENT_3D('',#400,#317,#318);
#269=AXIS2_PLACEMENT_3D('',#403,#320,#321);
#270=AXIS2_PLACEMENT_3D('',#404,#322,#323);
#271=AXIS2_PLACEMENT_3D('placement',#405,#324,#325);
#272=AXIS2_PLACEMENT_3D('',#406,#326,#327);
#273=AXIS2_PLACEMENT_3D('',#409,#328,#329);
#274=AXIS2_PLACEMENT_3D('',#410,#330,#331);
#275=AXIS2_PLACEMENT_3D('',#413,#333,#334);
#276=AXIS2_PLACEMENT_3D('',#414,#335,#336);
#277=AXIS2_PLACEMENT_3D('',#416,#337,#338);
#278=AXIS2_PLACEMENT_3D('',#419,#340,#341);
#279=AXIS2_PLACEMENT_3D('',#420,#342,#343);
#280=AXIS2_PLACEMENT_3D('',#422,#344,#345);
#281=AXIS2_PLACEMENT_3D('',#423,#346,#347);
#282=AXIS2_PLACEMENT_3D('',#425,#348,#349);
#283=AXIS2_PLACEMENT_3D('',#426,#350,#351);
#284=AXIS2_PLACEMENT_3D('',#428,#352,#353);
#285=AXIS2_PLACEMENT_3D('',#429,#354,#355);
#286=AXIS2_PLACEMENT_3D('',#433,#357,#358);
#287=AXIS2_PLACEMENT_3D('',#434,#359,#360);
#288=AXIS2_PLACEMENT_3D('',#435,#361,#362);
#289=AXIS2_PLACEMENT_3D('',#438,#363,#364);
#290=AXIS2_PLACEMENT_3D('',#439,#365,#366);
#291=AXIS2_PLACEMENT_3D('',#441,#368,#369);
#292=AXIS2_PLACEMENT_3D('',#443,#370,#371);
#293=AXIS2_PLACEMENT_3D('',#444,#372,#373);
#294=AXIS2_PLACEMENT_3D('',#445,#374,#375);
#295=AXIS2_PLACEMENT_3D('',#448,#377,#378);
#296=AXIS2_PLACEMENT_3D('',#449,#379,#380);
#297=AXIS2_PLACEMENT_3D('',#450,#381,#382);
#298=AXIS2_PLACEMENT_3D('',#452,#384,#385);
#299=AXIS2_PLACEMENT_3D('',#453,#386,#387);
#300=DIRECTION('axis',(0.,0.,1.));
#301=DIRECTION('refdir',(1.,0.,0.));
#302=DIRECTION('axis',(0.,0.,1.));
#303=DIRECTION('refdir',(1.,0.,0.));
#304=DIRECTION('center_axis',(0.,1.,0.));
#305=DIRECTION('ref_axis',(0.,0.,1.));
#306=DIRECTION('center_axis',(0.,-1.,0.));
#307=DIRECTION('ref_axis',(0.,0.,1.));
#308=DIRECTION('center_axis',(0.,-1.,0.));
#309=DIRECTION('ref_axis',(0.,0.,1.));
#310=DIRECTION('',(0.,1.,0.));
#311=DIRECTION('center_axis',(0.,-1.,0.));
#312=DIRECTION('ref_axis',(0.,0.,1.));
#313=DIRECTION('center_axis',(0.,-1.,0.));
#314=DIRECTION('ref_axis',(1.,0.,0.));
#315=DIRECTION('center_axis',(0.,1.,0.));
#316=DIRECTION('ref_axis',(0.,0.,1.));
#317=DIRECTION('center_axis',(0.,-1.,0.));
#318=DIRECTION('ref_axis',(0.,0.,-1.));
#319=DIRECTION('',(-2.90187627609101E-17,-0.971520338783129,0.236956180191008));
#320=DIRECTION('center_axis',(0.,1.,0.));
#321=DIRECTION('ref_axis',(0.,0.,1.));
#322=DIRECTION('center_axis',(0.,-1.,0.));
#323=DIRECTION('ref_axis',(1.,0.,0.));
#324=DIRECTION('axis',(0.,0.,1.));
#325=DIRECTION('refdir',(1.,0.,0.));
#326=DIRECTION('center_axis',(0.,-1.,0.));
#327=DIRECTION('ref_axis',(0.,0.,1.));
#328=DIRECTION('center_axis',(0.,-1.,0.));
#329=DIRECTION('ref_axis',(0.,0.,1.));
#330=DIRECTION('center_axis',(0.,-1.,0.));
#331=DIRECTION('ref_axis',(0.,0.,1.));
#332=DIRECTION('',(0.,-1.,0.));
#333=DIRECTION('center_axis',(0.,-1.,0.));
#334=DIRECTION('ref_axis',(0.,0.,1.));
#335=DIRECTION('center_axis',(0.,-1.,0.));
#336=DIRECTION('ref_axis',(1.,0.,0.));
#337=DIRECTION('center_axis',(0.,-1.,0.));
#338=DIRECTION('ref_axis',(1.,0.,0.));
#339=DIRECTION('',(0.,1.,0.));
#340=DIRECTION('center_axis',(0.,-1.,0.));
#341=DIRECTION('ref_axis',(1.,0.,0.));
#342=DIRECTION('center_axis',(0.,-1.,0.));
#343=DIRECTION('ref_axis',(0.,0.,1.));
#344=DIRECTION('center_axis',(0.,1.,0.));
#345=DIRECTION('ref_axis',(0.,0.,1.));
#346=DIRECTION('center_axis',(0.,-1.,0.));
#347=DIRECTION('ref_axis',(1.,0.,0.));
#348=DIRECTION('center_axis',(0.,-1.,0.));
#349=DIRECTION('ref_axis',(6.12323399573677E-17,0.,1.));
#350=DIRECTION('center_axis',(0.,-1.,0.));
#351=DIRECTION('ref_axis',(1.,0.,0.));
#352=DIRECTION('center_axis',(0.,-1.,0.));
#353=DIRECTION('ref_axis',(1.,0.,0.));
#354=DIRECTION('center_axis',(0.,-1.,0.));
#355=DIRECTION('ref_axis',(0.,0.,-1.));
#356=DIRECTION('',(-2.90187627609101E-17,-0.97152033878313,0.236956180191008));
#357=DIRECTION('center_axis',(0.,1.,0.));
#358=DIRECTION('ref_axis',(0.,0.,1.));
#359=DIRECTION('center_axis',(0.,1.,0.));
#360=DIRECTION('ref_axis',(0.,0.,1.));
#361=DIRECTION('center_axis',(0.,-1.,0.));
#362=DIRECTION('ref_axis',(1.,0.,0.));
#363=DIRECTION('center_axis',(0.,-1.,0.));
#364=DIRECTION('ref_axis',(1.,0.,0.));
#365=DIRECTION('center_axis',(0.,-1.,0.));
#366=DIRECTION('ref_axis',(1.,0.,0.));
#367=DIRECTION('',(0.,1.,0.));
#368=DIRECTION('center_axis',(0.,1.,0.));
#369=DIRECTION('ref_axis',(0.,0.,1.));
#370=DIRECTION('center_axis',(0.,1.,0.));
#371=DIRECTION('ref_axis',(6.12323399573677E-17,0.,1.));
#372=DIRECTION('center_axis',(-1.,0.,0.));
#373=DIRECTION('ref_axis',(0.,0.,-1.));
#374=DIRECTION('center_axis',(0.,1.,0.));
#375=DIRECTION('ref_axis',(-1.,0.,0.));
#376=DIRECTION('',(-0.707106781186547,-0.707106781186548,8.65956056235493E-17));
#377=DIRECTION('center_axis',(0.,-1.,0.));
#378=DIRECTION('ref_axis',(1.,0.,0.));
#379=DIRECTION('center_axis',(0.,-1.,0.));
#380=DIRECTION('ref_axis',(1.,0.,0.));
#381=DIRECTION('center_axis',(0.,1.,0.));
#382=DIRECTION('ref_axis',(0.,0.,-1.));
#383=DIRECTION('',(2.97020476879948E-17,0.970142500145332,0.242535625036333));
#384=DIRECTION('',(0.,0.,1.));
#385=DIRECTION('',(1.,0.,0.));
#386=DIRECTION('',(0.,0.,1.));
#387=DIRECTION('',(1.,0.,0.));
#388=CARTESIAN_POINT('',(0.,0.,0.));
#389=CARTESIAN_POINT('',(0.,0.,0.));
#390=CARTESIAN_POINT('Origin',(174.000000000022,152.199999999658,-272.449999999997));
#391=CARTESIAN_POINT('',(174.000000000022,152.199999999658,-285.049999999997));
#392=CARTESIAN_POINT('Origin',(174.000000000022,152.199999999658,-272.449999999997));
#393=CARTESIAN_POINT('Origin',(174.000000000022,152.199999999658,-272.449999999997));
#394=CARTESIAN_POINT('',(174.000000000022,155.649999999658,-285.049999999997));
#395=CARTESIAN_POINT('',(174.000000000022,152.199999999658,-285.049999999997));
#396=CARTESIAN_POINT('Origin',(174.000000000022,155.649999999658,-272.449999999997));
#397=CARTESIAN_POINT('Origin',(0.,155.649999999658,0.));
#398=CARTESIAN_POINT('',(174.000000000022,155.649999999658,-261.949999999997));
#399=CARTESIAN_POINT('Origin',(174.000000000022,155.649999999658,-272.449999999997));
#400=CARTESIAN_POINT('Origin',(174.000000000022,154.074999999658,-272.449999999997));
#401=CARTESIAN_POINT('',(174.000000000022,152.499999999658,-261.181707317071));
#402=CARTESIAN_POINT('',(174.000000000022,154.074999999658,-261.565853658534));
#403=CARTESIAN_POINT('Origin',(174.000000000022,152.499999999658,-272.449999999997));
#404=CARTESIAN_POINT('Origin',(0.,152.499999999658,0.));
#405=CARTESIAN_POINT('',(0.,0.,0.));
#406=CARTESIAN_POINT('Origin',(174.000000000022,155.649999999658,-272.449999999997));
#407=CARTESIAN_POINT('',(174.000000000022,155.649999999658,-259.749999999997));
#408=CARTESIAN_POINT('',(174.000000000022,155.649999999658,-285.149999999997));
#409=CARTESIAN_POINT('Origin',(174.000000000022,155.649999999658,-272.449999999997));
#410=CARTESIAN_POINT('Origin',(174.000000000022,155.649999999658,-272.449999999997));
#411=CARTESIAN_POINT('',(174.000000000022,152.149999999658,-285.149999999997));
#412=CARTESIAN_POINT('',(174.000000000022,155.649999999658,-285.149999999997));
#413=CARTESIAN_POINT('Origin',(174.000000000022,152.149999999658,-272.449999999997));
#414=CARTESIAN_POINT('Origin',(174.000000000022,155.649999999658,-272.449999999997));
#415=CARTESIAN_POINT('',(160.100000000022,148.649999999658,-272.449999999997));
#416=CARTESIAN_POINT('Origin',(174.000000000022,148.649999999658,-272.449999999997));
#417=CARTESIAN_POINT('',(160.100000000022,157.649999999658,-272.449999999997));
#418=CARTESIAN_POINT('',(160.100000000022,155.649999999658,-272.449999999997));
#419=CARTESIAN_POINT('Origin',(174.000000000022,157.649999999658,-272.449999999997));
#420=CARTESIAN_POINT('Origin',(174.000000000022,152.149999999658,-272.449999999997));
#421=CARTESIAN_POINT('',(174.000000000022,152.149999999658,-261.096341463412));
#422=CARTESIAN_POINT('Origin',(174.000000000022,152.149999999658,-272.449999999997));
#423=CARTESIAN_POINT('Origin',(0.,157.649999999658,0.));
#424=CARTESIAN_POINT('',(174.000000000022,157.649999999658,-259.249999999997));
#425=CARTESIAN_POINT('Origin',(174.000000000022,157.649999999658,-272.449999999997));
#426=CARTESIAN_POINT('Origin',(0.,148.649999999658,0.));
#427=CARTESIAN_POINT('',(158.000000000022,148.649999999658,-272.449999999997));
#428=CARTESIAN_POINT('Origin',(174.000000000022,148.649999999658,-272.449999999997));
#429=CARTESIAN_POINT('Origin',(174.000000000022,150.693350989873,-272.449999999997));
#430=CARTESIAN_POINT('',(174.000000000022,149.236701980088,-260.385780970834));
#431=CARTESIAN_POINT('',(174.000000000022,150.693350989873,-260.741061217123));
#432=CARTESIAN_POINT('',(174.000000000022,149.236701980088,-284.51421902916));
#433=CARTESIAN_POINT('Origin',(174.000000000022,149.236701980088,-272.449999999997));
#434=CARTESIAN_POINT('Origin',(174.000000000022,149.236701980088,-272.449999999997));
#435=CARTESIAN_POINT('Origin',(174.000000000022,148.649999999658,-272.449999999997));
#436=CARTESIAN_POINT('',(190.000000000022,148.049999999658,-272.449999999997));
#437=CARTESIAN_POINT('',(158.000000000022,148.049999999658,-272.449999999997));
#438=CARTESIAN_POINT('Origin',(174.000000000022,148.049999999658,-272.449999999997));
#439=CARTESIAN_POINT('Origin',(174.000000000022,148.049999999658,-272.449999999997));
#440=CARTESIAN_POINT('',(158.000000000022,148.649999999658,-272.449999999997));
#441=CARTESIAN_POINT('Origin',(174.000000000022,149.947570520661,-272.449999999997));
#442=CARTESIAN_POINT('',(174.000000000022,147.449999999658,-285.766810884359));
#443=CARTESIAN_POINT('Origin',(174.000000000022,147.449999999658,-272.449999999997));
#444=CARTESIAN_POINT('Origin',(174.000000000022,149.947570520661,-287.42878004551));
#445=CARTESIAN_POINT('Origin',(174.000000000022,147.749999999658,-272.449999999997));
#446=CARTESIAN_POINT('',(189.400000000022,147.449999999658,-272.449999999997));
#447=CARTESIAN_POINT('',(189.700000000022,147.749999999658,-272.449999999997));
#448=CARTESIAN_POINT('Origin',(174.000000000022,147.449999999658,-272.449999999997));
#449=CARTESIAN_POINT('Origin',(0.,147.449999999658,0.));
#450=CARTESIAN_POINT('Origin',(174.000000000022,156.649999999658,-272.449999999997));
#451=CARTESIAN_POINT('',(174.000000000022,156.649999999658,-259.499999999997));
#452=CARTESIAN_POINT('',(0.,0.,0.));
#453=CARTESIAN_POINT('',(0.,0.,0.));
#454=UNCERTAINTY_MEASURE_WITH_UNIT(LENGTH_MEASURE(0.01),#462,
'DISTANCE_ACCURACY_VALUE',
'Maximum model space distance between geometric entities at asserted c
onnectivities');
#455=UNCERTAINTY_MEASURE_WITH_UNIT(LENGTH_MEASURE(0.01),#462,
'DISTANCE_ACCURACY_VALUE',
'Maximum model space distance between geometric entities at asserted c
onnectivities');
#456=UNCERTAINTY_MEASURE_WITH_UNIT(LENGTH_MEASURE(0.01),#462,
'DISTANCE_ACCURACY_VALUE',
'Maximum model space distance between geometric entities at asserted c
onnectivities');
#457=UNCERTAINTY_MEASURE_WITH_UNIT(LENGTH_MEASURE(0.01),#462,
'DISTANCE_ACCURACY_VALUE',
'Maximum model space distance between geometric entities at asserted c
onnectivities');
#458=(
GEOMETRIC_REPRESENTATION_CONTEXT(3)
GLOBAL_UNCERTAINTY_ASSIGNED_CONTEXT((#454))
GLOBAL_UNIT_ASSIGNED_CONTEXT((#462,#464,#465))
REPRESENTATION_CONTEXT('','3D')
);
#459=(
GEOMETRIC_REPRESENTATION_CONTEXT(3)
GLOBAL_UNCERTAINTY_ASSIGNED_CONTEXT((#455))
GLOBAL_UNIT_ASSIGNED_CONTEXT((#462,#464,#465))
REPRESENTATION_CONTEXT('','3D')
);
#460=(
GEOMETRIC_REPRESENTATION_CONTEXT(3)
GLOBAL_UNCERTAINTY_ASSIGNED_CONTEXT((#456))
GLOBAL_UNIT_ASSIGNED_CONTEXT((#462,#464,#465))
REPRESENTATION_CONTEXT('','3D')
);
#461=(
GEOMETRIC_REPRESENTATION_CONTEXT(3)
GLOBAL_UNCERTAINTY_ASSIGNED_CONTEXT((#457))
GLOBAL_UNIT_ASSIGNED_CONTEXT((#462,#464,#465))
REPRESENTATION_CONTEXT('','3D')
);
#462=(
LENGTH_UNIT()
NAMED_UNIT(*)
SI_UNIT(.MILLI.,.METRE.)
);
#463=(
LENGTH_UNIT()
NAMED_UNIT(*)
SI_UNIT($,.METRE.)
);
#464=(
NAMED_UNIT(*)
PLANE_ANGLE_UNIT()
SI_UNIT($,.RADIAN.)
);
#465=(
NAMED_UNIT(*)
SI_UNIT($,.STERADIAN.)
SOLID_ANGLE_UNIT()
);
#466=SHAPE_DEFINITION_REPRESENTATION(#469,#474);
#467=SHAPE_DEFINITION_REPRESENTATION(#470,#475);
#468=SHAPE_DEFINITION_REPRESENTATION(#471,#476);
#469=PRODUCT_DEFINITION_SHAPE('',$,#478);
#470=PRODUCT_DEFINITION_SHAPE('',$,#479);
#471=PRODUCT_DEFINITION_SHAPE('',$,#480);
#472=PRODUCT_DEFINITION_SHAPE($,$,#17);
#473=PRODUCT_DEFINITION_SHAPE($,$,#18);
#474=SHAPE_REPRESENTATION('',(#260,#298,#299),#458);
#475=SHAPE_REPRESENTATION('',(#261),#459);
#476=SHAPE_REPRESENTATION('',(#271),#460);
#477=PRODUCT_DEFINITION_CONTEXT('part definition',#488,'design');
#478=PRODUCT_DEFINITION('CPAP inlet grill','CPAP inlet grill v0',#481,#477);
#479=PRODUCT_DEFINITION('Grill','Grill',#482,#477);
#480=PRODUCT_DEFINITION('Inlet','Inlet',#483,#477);
#481=PRODUCT_DEFINITION_FORMATION('',$,#490);
#482=PRODUCT_DEFINITION_FORMATION('',$,#491);
#483=PRODUCT_DEFINITION_FORMATION('',$,#492);
#484=PRODUCT_RELATED_PRODUCT_CATEGORY('CPAP inlet grill v0',
'CPAP inlet grill v0',(#490));
#485=PRODUCT_RELATED_PRODUCT_CATEGORY('Grill','Grill',(#491));
#486=PRODUCT_RELATED_PRODUCT_CATEGORY('Inlet','Inlet',(#492));
#487=APPLICATION_PROTOCOL_DEFINITION('international standard',
'automotive_design',2009,#488);
#488=APPLICATION_CONTEXT(
'Core Data for Automotive Mechanical Design Process');
#489=PRODUCT_CONTEXT('part definition',#488,'mechanical');
#490=PRODUCT('CPAP inlet grill','CPAP inlet grill v0',$,(#489));
#491=PRODUCT('Grill','Grill',$,(#489));
#492=PRODUCT('Inlet','Inlet',$,(#489));
#493=PRESENTATION_STYLE_ASSIGNMENT((#495));
#494=PRESENTATION_STYLE_ASSIGNMENT((#496));
#495=SURFACE_STYLE_USAGE(.BOTH.,#497);
#496=SURFACE_STYLE_USAGE(.BOTH.,#498);
#497=SURFACE_SIDE_STYLE('',(#499));
#498=SURFACE_SIDE_STYLE('',(#500));
#499=SURFACE_STYLE_FILL_AREA(#501);
#500=SURFACE_STYLE_FILL_AREA(#502);
#501=FILL_AREA_STYLE('Steel - Satin',(#503));
#502=FILL_AREA_STYLE('Opaque(144,144,144)',(#504));
#503=FILL_AREA_STYLE_COLOUR('Steel - Satin',#505);
#504=FILL_AREA_STYLE_COLOUR('Opaque(144,144,144)',#506);
#505=COLOUR_RGB('Steel - Satin',0.627450980392157,0.627450980392157,0.627450980392157);
#506=COLOUR_RGB('Opaque(144,144,144)',0.564705882352941,0.564705882352941,
0.564705882352941);
ENDSEC;
END-ISO-10303-21;
